L 'Arc en Ciel - 4th Avenue Cafe




Reff 1:
G A F# Bm
Kisetsu wa odayaka ni owari o tsugeta ne
G A D
Iro do rareta kioku ni yosete
G A F# Bm
Sayonara ai o kureta ano hito wa
G A
Kono hitomi ni yurameiteita

Bm F#m G A
Bm F#m G

|--------5--0~--2~-----------5~-------------------2--3--5-----------------------------------|
|------------------------------------3--2------------------------3~--3--2~--------------------|
|--4~------------------4--2----------------2--0~-------------------------------2--2/4~-----|
|---------------------------------------------------------------------------------------------------|
|---------------------------------------------------------------------------------------------------|
|---------------------------------------------------------------------------------------------------|

|---5--0~--2~-----------5~----------------------------------10--9--12~---|
|-------------------------------3--2-------------8--10--12--------------------|
|-----------------4--2----------------2--0~------------------------------------|
|----------------------------------------------------------------------------------|
|----------------------------------------------------------------------------------|
|----------------------------------------------------------------------------------|

Bm A G
Togire nai kimochi nante
G A Bm
Hajimekara shinjite na katta
Bm A G
Utsuriyuku machi nami ni
G A D
Tori nokosareta mama

G A
Yuki kawau ano hito bito ga
D
imawa
G A D
Touku ni kanji rarede
G A F# Bm
Zawamekisae usurete wa
G F#
Tameiki ni kiete shimau

Bm A G
Kuuseki ni mitsumerareta
G A Bm
Taikutsu na kyuujitsu ni wa
Bm A G
Owaru koto naku anata ga
G A D
Nagare tsuzuketeiru

G A
Wakatteitemo kizukanai
D
furishite
G A D
Oborete itayo itsudemo
G A F# Bm
Dare ka no koto omotteru
G F#
Yokogao demo suteki datta kara

*back to reff 1

G F#
Ato. . . Dore kurai darou?
G F#
Soba ni. . . Itekureru no wa
G F#
Sou. . . Omoi na gara
Gm A F#
Toki o kizande itayo

Solo:
G A F# Bm
G A D
G A F# Bm
G A D

G A F# Bm
Yosete wa kaeshiteku Oh nami no you ni
G A D
Kono kokoro wa sarawarete

Reff 2:
G A F# Bm
Kyo mo machi wa ai mo kawarazu omoi megurase
G A D
Sore zore ni egaite yuku
G A F# Bm
Sayonara ai o kureta ano hito wa
G A D
Toui sora ni koi kogarete
G A D
Kono hitomi ni yurameiteita

Utsuriyuku machi nami ni
Tameiki wa koboreta

Baca Juga



0 comments:

Post a Comment

Silakan berkomentar dengan sopan

perhatian :
-Di larang spam
-Berkomentar sewajarnya tidak syara
-Tidak menyimpang dari isi postingan

Ingat :
Jangan Copy-Paste tanpa di Tulis sumbernya
loading...